ISO-10303-21;
HEADER;
FILE_DESCRIPTION (( 'STEP AP214' ),
    '1' );
FILE_NAME ('FULLVAC BT1KF505119.STEP',
    '2019-04-24T08:24:21',
    ( '' ),
    ( '' ),
    'SwSTEP 2.0',
    'SolidWorks 2017',
    '' );
FILE_SCHEMA (( 'AUTOMOTIVE_DESIGN' ));
ENDSEC;

DATA;
#1 = FILL_AREA_STYLE ('',( #163 ) ) ;
#2 = UNCERTAINTY_MEASURE_WITH_UNIT (LENGTH_MEASURE( 1.000000000000000100E-005 ), #76, 'distance_accuracy_value', 'NONE');
#3 = CIRCLE ( 'NONE', #125, 26.20000000000000300 ) ;
#4 = CLOSED_SHELL ( 'NONE', ( #49, #216, #228, #168, #94, #45, #213, #132, #146 ) ) ;
#5 =( NAMED_UNIT ( * ) SI_UNIT ( $, .STERADIAN. ) SOLID_ANGLE_UNIT ( ) );
#6 = CARTESIAN_POINT ( 'NONE',  ( 0.0000000000000000000, 0.0000000000000000000, 0.0000000000000000000 ) ) ;
#7 = FACE_OUTER_BOUND ( 'NONE', #112, .T. ) ;
#8 = CARTESIAN_POINT ( 'NONE',  ( 0.0000000000000000000, 6.228787768795029900, 0.0000000000000000000 ) ) ;
#9 = ORIENTED_EDGE ( 'NONE', *, *, #165, .T. ) ;
#10 = DIRECTION ( 'NONE',  ( 0.0000000000000000000, 0.0000000000000000000, -1.000000000000000000 ) ) ;
#11 = CARTESIAN_POINT ( 'NONE',  ( 74.90000000000000600, 2.851678778707476900, 37.45000000000000300 ) ) ;
#12 = DIRECTION ( 'NONE',  ( -0.0000000000000000000, -1.000000000000000000, -0.0000000000000000000 ) ) ;
#13 = CARTESIAN_POINT ( 'NONE',  ( 0.0000000000000000000, 3.038388356863343200, -37.30673270176685500 ) ) ;
#14 = DIRECTION ( 'NONE',  ( 0.0000000000000000000, 0.0000000000000000000, -1.000000000000000000 ) ) ;
#15 = CARTESIAN_POINT ( 'NONE',  ( -74.61346540353366700, 3.038388356863343600, 37.30673270176683300 ) ) ;
#16 = FACE_OUTER_BOUND ( 'NONE', #227, .T. ) ;
#17 = ORIENTED_EDGE ( 'NONE', *, *, #141, .T. ) ;
#18 = CARTESIAN_POINT ( 'NONE',  ( 0.0000000000000000000, 3.099299419155044300, 37.07940952255130200 ) ) ;
#19 = SURFACE_STYLE_FILL_AREA ( #1 ) ;
#20 = CARTESIAN_POINT ( 'NONE',  ( 0.0000000000000000000, 2.540000000000000000, 26.20000000000000300 ) ) ;
#21 = FACE_OUTER_BOUND ( 'NONE', #92, .T. ) ;
#22 = CARTESIAN_POINT ( 'NONE',  ( 0.0000000000000000000, 0.0000000000000000000, 37.45000000000000300 ) ) ;
#23 = PRODUCT_DEFINITION_FORMATION_WITH_SPECIFIED_SOURCE ( 'ANY', '', #180, .NOT_KNOWN. ) ;
#24 = AXIS2_PLACEMENT_3D ( 'NONE', #56, #119, #14 ) ;
#25 = DIRECTION ( 'NONE',  ( 0.0000000000000000000, 0.0000000000000000000, -1.000000000000000000 ) ) ;
#26 = FACE_OUTER_BOUND ( 'NONE', #37, .T. ) ;
#27 = CARTESIAN_POINT ( 'NONE',  ( -74.61346540353366700, 3.038388356863343600, -37.30673270176683300 ) ) ;
#28 = DIRECTION ( 'NONE',  ( 0.0000000000000000000, 1.000000000000000000, 0.0000000000000000000 ) ) ;
#29 = CIRCLE ( 'NONE', #230, 23.75000000000000000 ) ;
#30 = CARTESIAN_POINT ( 'NONE',  ( 0.0000000000000000000, 0.0000000000000000000, 0.0000000000000000000 ) ) ;
#31 = CARTESIAN_POINT ( 'NONE',  ( -74.15881904510260400, 3.099299419155044300, 37.07940952255130200 ) ) ;
#32 =( GEOMETRIC_REPRESENTATION_CONTEXT ( 3 ) GLOBAL_UNCERTAINTY_ASSIGNED_CONTEXT ( ( #2 ) ) GLOBAL_UNIT_ASSIGNED_CONTEXT ( ( #76, #95, #50 ) ) REPRESENTATION_CONTEXT ( 'NONE', 'WORKASPACE' ) );
#33 = FACE_OUTER_BOUND ( 'NONE', #41, .T. ) ;
#34 = ORIENTED_EDGE ( 'NONE', *, *, #104, .F. ) ;
#35 = ORIENTED_EDGE ( 'NONE', *, *, #106, .F. ) ;
#36 = MECHANICAL_DESIGN_GEOMETRIC_PRESENTATION_REPRESENTATION (  '', ( #223 ), #32 ) ;
#37 = EDGE_LOOP ( 'NONE', ( #35 ) ) ;
#38 =( GEOMETRIC_REPRESENTATION_CONTEXT ( 3 ) GLOBAL_UNCERTAINTY_ASSIGNED_CONTEXT ( ( #62 ) ) GLOBAL_UNIT_ASSIGNED_CONTEXT ( ( #143, #69, #5 ) ) REPRESENTATION_CONTEXT ( 'NONE', 'WORKASPACE' ) );
#39 = CARTESIAN_POINT ( 'NONE',  ( 0.0000000000000000000, 6.228787768795029900, 25.39999999999999900 ) ) ;
#40 = AXIS2_PLACEMENT_3D ( 'NONE', #8, #148, #44 ) ;
#41 = EDGE_LOOP ( 'NONE', ( #192 ) ) ;
#42 = DIRECTION ( 'NONE',  ( 0.0000000000000000000, 1.000000000000000000, 0.0000000000000000000 ) ) ;
#43 = APPLICATION_CONTEXT ( 'automotive_design' ) ;
#44 = DIRECTION ( 'NONE',  ( 0.0000000000000000000, 0.0000000000000000000, 1.000000000000000000 ) ) ;
#45 = ADVANCED_FACE ( 'NONE', ( #186, #240 ), #234, .T. ) ;
#46 = SURFACE_STYLE_FILL_AREA ( #153 ) ;
#47 = ORIENTED_EDGE ( 'NONE', *, *, #193, .T. ) ;
#48 = DIRECTION ( 'NONE',  ( 0.0000000000000000000, -2.339200513591600600E-017, 1.000000000000000000 ) ) ;
#49 = ADVANCED_FACE ( 'NONE', ( #159, #138 ), #105, .F. ) ;
#50 =( NAMED_UNIT ( * ) SI_UNIT ( $, .STERADIAN. ) SOLID_ANGLE_UNIT ( ) );
#51 = FACE_OUTER_BOUND ( 'NONE', #218, .T. ) ;
#52 = CYLINDRICAL_SURFACE ( 'NONE', #84, 26.20000000000000300 ) ;
#53 = FACE_OUTER_BOUND ( 'NONE', #257, .T. ) ;
#54 = DIRECTION ( 'NONE',  ( 0.0000000000000000000, 1.000000000000000000, 0.0000000000000000000 ) ) ;
#55 = CARTESIAN_POINT ( 'NONE',  ( 0.0000000000000000000, 3.099299419179097500, 0.0000000000000000000 ) ) ;
#56 = CARTESIAN_POINT ( 'NONE',  ( 0.0000000000000000000, 19.10000000000000100, 0.0000000000000000000 ) ) ;
#57 = AXIS2_PLACEMENT_3D ( 'NONE', #100, #113, #10 ) ;
#58 = CARTESIAN_POINT ( 'NONE',  ( -74.15881904510260400, 3.099299419155044300, -37.07940952255130200 ) ) ;
#59 = PLANE ( 'NONE',  #121 ) ;
#60 = DIRECTION ( 'NONE',  ( 0.0000000000000000000, 0.0000000000000000000, 1.000000000000000000 ) ) ;
#61 = CIRCLE ( 'NONE', #224, 26.20000000000000300 ) ;
#62 = UNCERTAINTY_MEASURE_WITH_UNIT (LENGTH_MEASURE( 1.000000000000000100E-005 ), #143, 'distance_accuracy_value', 'NONE');
#63 = VERTEX_POINT ( 'NONE', #39 ) ;
#64 = ORIENTED_EDGE ( 'NONE', *, *, #206, .F. ) ;
#65 =( GEOMETRIC_REPRESENTATION_CONTEXT ( 3 ) GLOBAL_UNCERTAINTY_ASSIGNED_CONTEXT ( ( #251 ) ) GLOBAL_UNIT_ASSIGNED_CONTEXT ( ( #89, #88, #184 ) ) REPRESENTATION_CONTEXT ( 'NONE', 'WORKASPACE' ) );
#66 = EDGE_LOOP ( 'NONE', ( #142 ) ) ;
#67 = APPLICATION_CONTEXT ( 'automotive_design' ) ;
#68 = CARTESIAN_POINT ( 'NONE',  ( -74.90000000000000600, 2.616336506010520100, -37.45000000000000300 ) ) ;
#69 =( NAMED_UNIT ( * ) PLANE_ANGLE_UNIT ( ) SI_UNIT ( $, .RADIAN. ) );
#70 = CARTESIAN_POINT ( 'NONE',  ( 0.0000000000000000000, 0.0000000000000000000, 0.0000000000000000000 ) ) ;
#71 = ORIENTED_EDGE ( 'NONE', *, *, #141, .F. ) ;
#72 = VERTEX_POINT ( 'NONE', #108 ) ;
#73 = STYLED_ITEM ( 'NONE', ( #179 ), #200 ) ;
#74 = PLANE ( 'NONE',  #83 ) ;
#75 = DIRECTION ( 'NONE',  ( 0.0000000000000000000, 0.0000000000000000000, 1.000000000000000000 ) ) ;
#76 =( LENGTH_UNIT ( ) NAMED_UNIT ( * ) SI_UNIT ( .MILLI., .METRE. ) );
#77 = AXIS2_PLACEMENT_3D ( 'NONE', #6, #188, #145 ) ;
#78 = CARTESIAN_POINT ( 'NONE',  ( -74.90000000000000600, 2.851678778707476900, 37.45000000000000300 ) ) ;
#79 = CARTESIAN_POINT ( 'NONE',  ( -1.424805383116280200E-015, 19.10000000000000100, -5.827942386483759600E-016 ) ) ;
#80 = DIRECTION ( 'NONE',  ( 0.0000000000000000000, 0.0000000000000000000, 1.000000000000000000 ) ) ;
#81 = EDGE_LOOP ( 'NONE', ( #71 ) ) ;
#82 = DIRECTION ( 'NONE',  ( -0.0000000000000000000, 1.000000000000000000, -0.0000000000000000000 ) ) ;
#83 = AXIS2_PLACEMENT_3D ( 'NONE', #152, #231, #252 ) ;
#84 = AXIS2_PLACEMENT_3D ( 'NONE', #30, #173, #80 ) ;
#85 = CIRCLE ( 'NONE', #57, 23.75000000000000000 ) ;
#86 = PRESENTATION_LAYER_ASSIGNMENT (  '', '', ( #73 ) ) ;
#87 = CARTESIAN_POINT ( 'NONE',  ( 0.0000000000000000000, 19.10000000000000100, -23.75000000000000000 ) ) ;
#88 =( NAMED_UNIT ( * ) PLANE_ANGLE_UNIT ( ) SI_UNIT ( $, .RADIAN. ) );
#89 =( LENGTH_UNIT ( ) NAMED_UNIT ( * ) SI_UNIT ( .MILLI., .METRE. ) );
#90 = FACE_BOUND ( 'NONE', #109, .T. ) ;
#91 = CARTESIAN_POINT ( 'NONE',  ( 0.0000000000000000000, 2.616336506010520100, 37.45000000000000300 ) ) ;
#92 = EDGE_LOOP ( 'NONE', ( #167 ) ) ;
#93 = CARTESIAN_POINT ( 'NONE',  ( 0.0000000000000000000, 19.10000000000000100, 25.39999999999999900 ) ) ;
#94 = ADVANCED_FACE ( 'NONE', ( #53, #21 ), #52, .F. ) ;
#95 =( NAMED_UNIT ( * ) PLANE_ANGLE_UNIT ( ) SI_UNIT ( $, .RADIAN. ) );
#96 = CARTESIAN_POINT ( 'NONE',  ( 0.0000000000000000000, 0.0000000000000000000, 0.0000000000000000000 ) ) ;
#97 = ORIENTED_EDGE ( 'NONE', *, *, #98, .F. ) ;
#98 = EDGE_CURVE ( 'NONE', #191, #191, #130, .T. ) ;
#99 = CARTESIAN_POINT ( 'NONE',  ( 74.15881904510260400, 3.099299419155044300, 37.07940952255130200 ) ) ;
#100 = CARTESIAN_POINT ( 'NONE',  ( 0.0000000000000000000, 19.10000000000000100, 0.0000000000000000000 ) ) ;
#101 = EDGE_LOOP ( 'NONE', ( #34 ) ) ;
#102 = CARTESIAN_POINT ( 'NONE',  ( 0.0000000000000000000, 3.099299419155044300, 37.07940952255130200 ) ) ;
#103 = DIRECTION ( 'NONE',  ( 0.0000000000000000000, -0.0000000000000000000, 1.000000000000000000 ) ) ;
#104 = EDGE_CURVE ( 'NONE', #140, #140, #29, .T. ) ;
#105 = CYLINDRICAL_SURFACE ( 'NONE', #24, 23.75000000000000000 ) ;
#106 = EDGE_CURVE ( 'NONE', #217, #217, #129, .T. ) ;
#107 = VERTEX_POINT ( 'NONE', #87 ) ;
#108 = CARTESIAN_POINT ( 'NONE',  ( 0.0000000000000000000, 3.099299419179096600, 37.07940952255773900 ) ) ;
#109 = EDGE_LOOP ( 'NONE', ( #208 ) ) ;
#110 = DIRECTION ( 'NONE',  ( 0.0000000000000000000, 1.000000000000000000, 0.0000000000000000000 ) ) ;
#111 = SURFACE_SIDE_STYLE ('',( #19 ) ) ;
#112 = EDGE_LOOP ( 'NONE', ( #97 ) ) ;
#113 = DIRECTION ( 'NONE',  ( 0.0000000000000000000, -1.000000000000000000, 0.0000000000000000000 ) ) ;
#114 = SURFACE_SIDE_STYLE ('',( #46 ) ) ;
#115 = VERTEX_POINT ( 'NONE', #20 ) ;
#116 = PRESENTATION_STYLE_ASSIGNMENT (( #197 ) ) ;
#117 = EDGE_LOOP ( 'NONE', ( #47 ) ) ;
#118 = EDGE_CURVE ( 'NONE', #115, #115, #3, .T. ) ;
#119 = DIRECTION ( 'NONE',  ( 0.0000000000000000000, -1.000000000000000000, 0.0000000000000000000 ) ) ;
#120 = CARTESIAN_POINT ( 'NONE',  ( 0.0000000000000000000, 2.851678778707476900, 37.45000000000000300 ) ) ;
#121 = AXIS2_PLACEMENT_3D ( 'NONE', #79, #28, #103 ) ;
#122 = CARTESIAN_POINT ( 'NONE',  ( 0.0000000000000000000, 2.616336506010520100, 0.0000000000000000000 ) ) ;
#123 = ORIENTED_EDGE ( 'NONE', *, *, #165, .F. ) ;
#124 = PRODUCT_RELATED_PRODUCT_CATEGORY ( 'part', '', ( #180 ) ) ;
#125 = AXIS2_PLACEMENT_3D ( 'NONE', #156, #136, #75 ) ;
#126 = SHAPE_DEFINITION_REPRESENTATION ( #169, #200 ) ;
#127 =( BOUNDED_SURFACE ( )  B_SPLINE_SURFACE ( 3, 3, ( 
 ( #18, #99, #198, #154, #58, #31, #102 ),
 ( #171, #255, #199, #13, #27, #15, #196 ),
 ( #175, #11, #170, #233, #232, #78, #120 ),
 ( #139, #248, #190, #214, #68, #150, #91 ) ),
 .UNSPECIFIED., .F., .T., .F. ) 
 B_SPLINE_SURFACE_WITH_KNOTS ( ( 4, 4 ),
 ( 4, 3, 4 ),
 ( 0.0000000000000000000, 1.000000000000000000 ),
 ( 0.0000000000000000000, 0.5000000000000000000, 1.000000000000000000 ),
 .UNSPECIFIED. ) 
 GEOMETRIC_REPRESENTATION_ITEM ( )  RATIONAL_B_SPLINE_SURFACE ( (
 ( 1.000000000000000000, 0.3333333333333333100, 0.3333333333333333100, 1.000000000000000000, 0.3333333333333333100, 0.3333333333333333100, 1.000000000000000000),
 ( 0.8622355601941725800, 0.2874118533980575300, 0.2874118533980575300, 0.8622355601941725800, 0.2874118533980575300, 0.2874118533980575300, 0.8622355601941725800),
 ( 0.8622355601941725800, 0.2874118533980575300, 0.2874118533980575300, 0.8622355601941725800, 0.2874118533980575300, 0.2874118533980575300, 0.8622355601941725800),
 ( 1.000000000000000000, 0.3333333333333333100, 0.3333333333333333100, 1.000000000000000000, 0.3333333333333333100, 0.3333333333333333100, 1.000000000000000000) ) ) 
 REPRESENTATION_ITEM ( '' )  SURFACE ( )  );
#128 = CARTESIAN_POINT ( 'NONE',  ( 0.0000000000000000000, 0.0000000000000000000, 26.20000000000000300 ) ) ;
#129 = CIRCLE ( 'NONE', #160, 25.39999999999999900 ) ;
#130 = CIRCLE ( 'NONE', #155, 37.45000000000000300 ) ;
#131 = SURFACE_STYLE_USAGE ( .BOTH. , #111 ) ;
#132 = ADVANCED_FACE ( 'NONE', ( #16, #239 ), #127, .T. ) ;
#133 = DIRECTION ( 'NONE',  ( 0.0000000000000000000, 1.000000000000000000, 0.0000000000000000000 ) ) ;
#134 = PLANE ( 'NONE',  #237 ) ;
#135 = CARTESIAN_POINT ( 'NONE',  ( 0.0000000000000000000, 3.099299419179097500, 0.0000000000000000000 ) ) ;
#136 = DIRECTION ( 'NONE',  ( 0.0000000000000000000, 1.000000000000000000, 0.0000000000000000000 ) ) ;
#137 = CYLINDRICAL_SURFACE ( 'NONE', #77, 37.45000000000000300 ) ;
#138 = FACE_OUTER_BOUND ( 'NONE', #101, .T. ) ;
#139 = CARTESIAN_POINT ( 'NONE',  ( 0.0000000000000000000, 2.616336506010520100, 37.45000000000000300 ) ) ;
#140 = VERTEX_POINT ( 'NONE', #209 ) ;
#141 = EDGE_CURVE ( 'NONE', #236, #236, #162, .T. ) ;
#142 = ORIENTED_EDGE ( 'NONE', *, *, #106, .T. ) ;
#143 =( LENGTH_UNIT ( ) NAMED_UNIT ( * ) SI_UNIT ( .MILLI., .METRE. ) );
#144 = CYLINDRICAL_SURFACE ( 'NONE', #210, 25.39999999999999900 ) ;
#145 = DIRECTION ( 'NONE',  ( 0.0000000000000000000, 0.0000000000000000000, 1.000000000000000000 ) ) ;
#146 = ADVANCED_FACE ( 'NONE', ( #7, #51 ), #137, .T. ) ;
#147 = AXIS2_PLACEMENT_3D ( 'NONE', #135, #12, #25 ) ;
#148 = DIRECTION ( 'NONE',  ( 0.0000000000000000000, 1.000000000000000000, 0.0000000000000000000 ) ) ;
#149 = FACE_BOUND ( 'NONE', #242, .T. ) ;
#150 = CARTESIAN_POINT ( 'NONE',  ( -74.90000000000000600, 2.616336506010520100, 37.45000000000000300 ) ) ;
#151 = EDGE_LOOP ( 'NONE', ( #123 ) ) ;
#152 = CARTESIAN_POINT ( 'NONE',  ( 1.963283835118420200E-015, 0.0000000000000000000, 7.905459899422560000E-016 ) ) ;
#153 = FILL_AREA_STYLE ('',( #189 ) ) ;
#154 = CARTESIAN_POINT ( 'NONE',  ( 0.0000000000000000000, 3.099299419155044300, -37.07940952255130200 ) ) ;
#155 = AXIS2_PLACEMENT_3D ( 'NONE', #122, #54, #60 ) ;
#156 = CARTESIAN_POINT ( 'NONE',  ( 0.0000000000000000000, 2.540000000000000000, 0.0000000000000000000 ) ) ;
#157 = AXIS2_PLACEMENT_3D ( 'NONE', #207, #226, #225 ) ;
#158 = COLOUR_RGB ( '',0.7450980392156862900, 0.7450980392156862900, 0.7450980392156862900 ) ;
#159 = FACE_OUTER_BOUND ( 'NONE', #221, .T. ) ;
#160 = AXIS2_PLACEMENT_3D ( 'NONE', #220, #133, #256 ) ;
#161 = EDGE_LOOP ( 'NONE', ( #9 ) ) ;
#162 = CIRCLE ( 'NONE', #187, 37.45000000000000300 ) ;
#163 = FILL_AREA_STYLE_COLOUR ( '', #158 ) ;
#164 = EDGE_LOOP ( 'NONE', ( #203 ) ) ;
#165 = EDGE_CURVE ( 'NONE', #63, #63, #254, .T. ) ;
#166 = DIRECTION ( 'NONE',  ( 0.0000000000000000000, 1.000000000000000000, 0.0000000000000000000 ) ) ;
#167 = ORIENTED_EDGE ( 'NONE', *, *, #118, .T. ) ;
#168 = ADVANCED_FACE ( 'NONE', ( #26, #182 ), #144, .T. ) ;
#169 = PRODUCT_DEFINITION_SHAPE ( 'NONE', 'NONE',  #246 ) ;
#170 = CARTESIAN_POINT ( 'NONE',  ( 74.90000000000000600, 2.851678778707476900, -37.45000000000000300 ) ) ;
#171 = CARTESIAN_POINT ( 'NONE',  ( 0.0000000000000000000, 3.038388356863343200, 37.30673270176685500 ) ) ;
#172 = DIRECTION ( 'NONE',  ( 0.0000000000000000000, 1.000000000000000000, 0.0000000000000000000 ) ) ;
#173 = DIRECTION ( 'NONE',  ( 0.0000000000000000000, 1.000000000000000000, 0.0000000000000000000 ) ) ;
#174 = VERTEX_POINT ( 'NONE', #128 ) ;
#175 = CARTESIAN_POINT ( 'NONE',  ( 0.0000000000000000000, 2.851678778707476900, 37.45000000000000300 ) ) ;
#176 = DIRECTION ( 'NONE',  ( 0.0000000000000000000, -0.0000000000000000000, 1.000000000000000000 ) ) ;
#177 = ORIENTED_EDGE ( 'NONE', *, *, #104, .T. ) ;
#178 = AXIS2_PLACEMENT_3D ( 'NONE', #55, #229, #48 ) ;
#179 = PRESENTATION_STYLE_ASSIGNMENT (( #131 ) ) ;
#180 = PRODUCT ( 'FULLVAC BT1KF505119', 'FULLVAC BT1KF505119', '', ( #244 ) ) ;
#181 = EDGE_LOOP ( 'NONE', ( #245 ) ) ;
#182 = FACE_OUTER_BOUND ( 'NONE', #161, .T. ) ;
#183 = APPLICATION_PROTOCOL_DEFINITION ( 'draft international standard', 'automotive_design', 1998, #43 ) ;
#184 =( NAMED_UNIT ( * ) SI_UNIT ( $, .STERADIAN. ) SOLID_ANGLE_UNIT ( ) );
#185 = DIRECTION ( 'NONE',  ( 0.0000000000000000000, 0.0000000000000000000, 1.000000000000000000 ) ) ;
#186 = FACE_OUTER_BOUND ( 'NONE', #117, .T. ) ;
#187 = AXIS2_PLACEMENT_3D ( 'NONE', #96, #42, #185 ) ;
#188 = DIRECTION ( 'NONE',  ( 0.0000000000000000000, 1.000000000000000000, 0.0000000000000000000 ) ) ;
#189 = FILL_AREA_STYLE_COLOUR ( '', #258 ) ;
#190 = CARTESIAN_POINT ( 'NONE',  ( 74.90000000000000600, 2.616336506010520100, -37.45000000000000300 ) ) ;
#191 = VERTEX_POINT ( 'NONE', #211 ) ;
#192 = ORIENTED_EDGE ( 'NONE', *, *, #118, .F. ) ;
#193 = EDGE_CURVE ( 'NONE', #72, #72, #241, .T. ) ;
#194 = CARTESIAN_POINT ( 'NONE',  ( -2.673812178138389900E-016, 2.540000000000000000, 0.0000000000000000000 ) ) ;
#195 = MANIFOLD_SOLID_BREP ( '\X2\5BE69AD4\X0\1', #4 ) ;
#196 = CARTESIAN_POINT ( 'NONE',  ( 0.0000000000000000000, 3.038388356863343200, 37.30673270176685500 ) ) ;
#197 = SURFACE_STYLE_USAGE ( .BOTH. , #114 ) ;
#198 = CARTESIAN_POINT ( 'NONE',  ( 74.15881904510260400, 3.099299419155044300, -37.07940952255130200 ) ) ;
#199 = CARTESIAN_POINT ( 'NONE',  ( 74.61346540353366700, 3.038388356863343600, -37.30673270176683300 ) ) ;
#200 = ADVANCED_BREP_SHAPE_REPRESENTATION ( 'FULLVAC BT1KF505119', ( #195, #157 ), #38 ) ;
#201 = ORIENTED_EDGE ( 'NONE', *, *, #253, .F. ) ;
#202 = FACE_BOUND ( 'NONE', #164, .T. ) ;
#203 = ORIENTED_EDGE ( 'NONE', *, *, #253, .T. ) ;
#204 = FACE_OUTER_BOUND ( 'NONE', #81, .T. ) ;
#205 = ORIENTED_EDGE ( 'NONE', *, *, #193, .F. ) ;
#206 = EDGE_CURVE ( 'NONE', #107, #107, #85, .T. ) ;
#207 = CARTESIAN_POINT ( 'NONE',  ( 0.0000000000000000000, 0.0000000000000000000, 0.0000000000000000000 ) ) ;
#208 = ORIENTED_EDGE ( 'NONE', *, *, #206, .T. ) ;
#209 = CARTESIAN_POINT ( 'NONE',  ( 0.0000000000000000000, 2.540000000000000500, -23.75000000000000000 ) ) ;
#210 = AXIS2_PLACEMENT_3D ( 'NONE', #212, #166, #247 ) ;
#211 = CARTESIAN_POINT ( 'NONE',  ( 0.0000000000000000000, 2.616336506010520100, 37.45000000000000300 ) ) ;
#212 = CARTESIAN_POINT ( 'NONE',  ( 0.0000000000000000000, 0.0000000000000000000, 0.0000000000000000000 ) ) ;
#213 = ADVANCED_FACE ( 'NONE', ( #202, #204 ), #74, .F. ) ;
#214 = CARTESIAN_POINT ( 'NONE',  ( 0.0000000000000000000, 2.616336506010520100, -37.45000000000000300 ) ) ;
#215 = MECHANICAL_DESIGN_GEOMETRIC_PRESENTATION_REPRESENTATION (  '', ( #73 ), #65 ) ;
#216 = ADVANCED_FACE ( 'NONE', ( #90, #249 ), #59, .T. ) ;
#217 = VERTEX_POINT ( 'NONE', #93 ) ;
#218 = EDGE_LOOP ( 'NONE', ( #17 ) ) ;
#219 = DIRECTION ( 'NONE',  ( 0.0000000000000000000, 0.0000000000000000000, -1.000000000000000000 ) ) ;
#220 = CARTESIAN_POINT ( 'NONE',  ( 0.0000000000000000000, 19.10000000000000100, 0.0000000000000000000 ) ) ;
#221 = EDGE_LOOP ( 'NONE', ( #64 ) ) ;
#222 = PRESENTATION_LAYER_ASSIGNMENT (  '', '', ( #223 ) ) ;
#223 = STYLED_ITEM ( 'NONE', ( #116 ), #195 ) ;
#224 = AXIS2_PLACEMENT_3D ( 'NONE', #70, #110, #243 ) ;
#225 = DIRECTION ( 'NONE',  ( 1.000000000000000000, 0.0000000000000000000, 0.0000000000000000000 ) ) ;
#226 = DIRECTION ( 'NONE',  ( 0.0000000000000000000, 0.0000000000000000000, 1.000000000000000000 ) ) ;
#227 = EDGE_LOOP ( 'NONE', ( #205 ) ) ;
#228 = ADVANCED_FACE ( 'NONE', ( #149, #33 ), #134, .F. ) ;
#229 = DIRECTION ( 'NONE',  ( -0.0000000000000000000, 1.000000000000000000, -0.0000000000000000000 ) ) ;
#230 = AXIS2_PLACEMENT_3D ( 'NONE', #235, #82, #219 ) ;
#231 = DIRECTION ( 'NONE',  ( 0.0000000000000000000, 1.000000000000000000, 0.0000000000000000000 ) ) ;
#232 = CARTESIAN_POINT ( 'NONE',  ( -74.90000000000000600, 2.851678778707476900, -37.45000000000000300 ) ) ;
#233 = CARTESIAN_POINT ( 'NONE',  ( 0.0000000000000000000, 2.851678778707476900, -37.45000000000000300 ) ) ;
#234 = CONICAL_SURFACE ( 'NONE', #147, 37.07940952255773900, 1.308996939000000000 ) ;
#235 = CARTESIAN_POINT ( 'NONE',  ( 0.0000000000000000000, 2.540000000000000500, 0.0000000000000000000 ) ) ;
#236 = VERTEX_POINT ( 'NONE', #22 ) ;
#237 = AXIS2_PLACEMENT_3D ( 'NONE', #194, #172, #176 ) ;
#238 = APPLICATION_PROTOCOL_DEFINITION ( 'draft international standard', 'automotive_design', 1998, #67 ) ;
#239 = FACE_OUTER_BOUND ( 'NONE', #181, .T. ) ;
#240 = FACE_BOUND ( 'NONE', #151, .T. ) ;
#241 = CIRCLE ( 'NONE', #178, 37.07940952255773900 ) ;
#242 = EDGE_LOOP ( 'NONE', ( #177 ) ) ;
#243 = DIRECTION ( 'NONE',  ( 0.0000000000000000000, 0.0000000000000000000, 1.000000000000000000 ) ) ;
#244 = PRODUCT_CONTEXT ( 'NONE', #43, 'mechanical' ) ;
#245 = ORIENTED_EDGE ( 'NONE', *, *, #98, .T. ) ;
#246 = PRODUCT_DEFINITION ( 'UNKNOWN', '', #23, #250 ) ;
#247 = DIRECTION ( 'NONE',  ( 0.0000000000000000000, 0.0000000000000000000, 1.000000000000000000 ) ) ;
#248 = CARTESIAN_POINT ( 'NONE',  ( 74.90000000000000600, 2.616336506010520100, 37.45000000000000300 ) ) ;
#249 = FACE_OUTER_BOUND ( 'NONE', #66, .T. ) ;
#250 = PRODUCT_DEFINITION_CONTEXT ( 'detailed design', #67, 'design' ) ;
#251 = UNCERTAINTY_MEASURE_WITH_UNIT (LENGTH_MEASURE( 1.000000000000000100E-005 ), #89, 'distance_accuracy_value', 'NONE');
#252 = DIRECTION ( 'NONE',  ( 0.0000000000000000000, -0.0000000000000000000, 1.000000000000000000 ) ) ;
#253 = EDGE_CURVE ( 'NONE', #174, #174, #61, .T. ) ;
#254 = CIRCLE ( 'NONE', #40, 25.39999999999999900 ) ;
#255 = CARTESIAN_POINT ( 'NONE',  ( 74.61346540353366700, 3.038388356863343600, 37.30673270176683300 ) ) ;
#256 = DIRECTION ( 'NONE',  ( 0.0000000000000000000, 0.0000000000000000000, 1.000000000000000000 ) ) ;
#257 = EDGE_LOOP ( 'NONE', ( #201 ) ) ;
#258 = COLOUR_RGB ( '',0.7450980392156862900, 0.7450980392156862900, 0.7450980392156862900 ) ;
ENDSEC;
END-ISO-10303-21;
